ISO-10303-21;
HEADER;
/* Generated by software containing ST-Developer
 * from STEP Tools, Inc. (www.steptools.com) 
 */

FILE_DESCRIPTION(
/* description */ (''),
/* implementation_level */ '2;1');

FILE_NAME(
/* name */ 
'N:\\Documents\\Catalogue Update\\STEP files for John Oct16\\FSW 801.s
tp',
/* time_stamp */ '2016-11-15T14:49:12+00:00',
/* author */ ('kevin'),
/* organization */ (''),
/* preprocessor_version */ 'ST-DEVELOPER v15.2',
/* originating_system */ 'Autodesk Inventor 2014',
/* authorisation */ '');

FILE_SCHEMA (('AUTOMOTIVE_DESIGN { 1 0 10303 214 3 1 1 }'));
ENDSEC;

DATA;
#10=MECHANICAL_DESIGN_GEOMETRIC_PRESENTATION_REPRESENTATION('',(#13),#163);
#11=SHAPE_REPRESENTATION_RELATIONSHIP('SRR','None',#172,#12);
#12=ADVANCED_BREP_SHAPE_REPRESENTATION($,(#92),#162);
#13=STYLED_ITEM('',(#181),#92);
#14=PLANE('',#99);
#15=PLANE('',#106);
#16=PLANE('',#107);
#17=CYLINDRICAL_SURFACE('',#97,6.9);
#18=CYLINDRICAL_SURFACE('',#101,4.5);
#19=CYLINDRICAL_SURFACE('',#103,11.);
#20=FACE_BOUND('',#35,.T.);
#21=FACE_BOUND('',#37,.T.);
#22=FACE_BOUND('',#38,.T.);
#23=FACE_BOUND('',#39,.T.);
#24=FACE_BOUND('',#41,.T.);
#25=FACE_BOUND('',#43,.T.);
#26=FACE_BOUND('',#44,.T.);
#27=FACE_BOUND('',#45,.T.);
#28=FACE_BOUND('',#46,.T.);
#29=FACE_BOUND('',#47,.T.);
#30=FACE_OUTER_BOUND('',#34,.T.);
#31=FACE_OUTER_BOUND('',#36,.T.);
#32=FACE_OUTER_BOUND('',#40,.T.);
#33=FACE_OUTER_BOUND('',#42,.T.);
#34=EDGE_LOOP('',(#69));
#35=EDGE_LOOP('',(#70));
#36=EDGE_LOOP('',(#71));
#37=EDGE_LOOP('',(#72));
#38=EDGE_LOOP('',(#73));
#39=EDGE_LOOP('',(#74));
#40=EDGE_LOOP('',(#75));
#41=EDGE_LOOP('',(#76));
#42=EDGE_LOOP('',(#77));
#43=EDGE_LOOP('',(#78));
#44=EDGE_LOOP('',(#79));
#45=EDGE_LOOP('',(#80));
#46=EDGE_LOOP('',(#81));
#47=EDGE_LOOP('',(#82));
#48=CIRCLE('',#95,6.4);
#49=CIRCLE('',#96,6.9);
#50=CIRCLE('',#98,6.9);
#51=CIRCLE('',#100,4.5);
#52=CIRCLE('',#102,4.5);
#53=CIRCLE('',#104,11.);
#54=CIRCLE('',#105,11.);
#55=VERTEX_POINT('',#140);
#56=VERTEX_POINT('',#142);
#57=VERTEX_POINT('',#145);
#58=VERTEX_POINT('',#148);
#59=VERTEX_POINT('',#151);
#60=VERTEX_POINT('',#154);
#61=VERTEX_POINT('',#156);
#62=EDGE_CURVE('',#55,#55,#48,.T.);
#63=EDGE_CURVE('',#56,#56,#49,.T.);
#64=EDGE_CURVE('',#57,#57,#50,.T.);
#65=EDGE_CURVE('',#58,#58,#51,.T.);
#66=EDGE_CURVE('',#59,#59,#52,.T.);
#67=EDGE_CURVE('',#60,#60,#53,.T.);
#68=EDGE_CURVE('',#61,#61,#54,.T.);
#69=ORIENTED_EDGE('',*,*,#62,.T.);
#70=ORIENTED_EDGE('',*,*,#63,.T.);
#71=ORIENTED_EDGE('',*,*,#64,.F.);
#72=ORIENTED_EDGE('',*,*,#63,.F.);
#73=ORIENTED_EDGE('',*,*,#65,.T.);
#74=ORIENTED_EDGE('',*,*,#62,.F.);
#75=ORIENTED_EDGE('',*,*,#65,.F.);
#76=ORIENTED_EDGE('',*,*,#66,.F.);
#77=ORIENTED_EDGE('',*,*,#67,.T.);
#78=ORIENTED_EDGE('',*,*,#68,.F.);
#79=ORIENTED_EDGE('',*,*,#64,.T.);
#80=ORIENTED_EDGE('',*,*,#67,.F.);
#81=ORIENTED_EDGE('',*,*,#66,.T.);
#82=ORIENTED_EDGE('',*,*,#68,.T.);
#83=CONICAL_SURFACE('',#94,6.65,45.0000000000001);
#84=ADVANCED_FACE('',(#30,#20),#83,.T.);
#85=ADVANCED_FACE('',(#31,#21),#17,.T.);
#86=ADVANCED_FACE('',(#22,#23),#14,.F.);
#87=ADVANCED_FACE('',(#32,#24),#18,.F.);
#88=ADVANCED_FACE('',(#33,#25),#19,.T.);
#89=ADVANCED_FACE('',(#26,#27),#15,.F.);
#90=ADVANCED_FACE('',(#28,#29),#16,.T.);
#91=CLOSED_SHELL('',(#84,#85,#86,#87,#88,#89,#90));
#92=MANIFOLD_SOLID_BREP('Solid1',#91);
#93=AXIS2_PLACEMENT_3D('placement',#138,#108,#109);
#94=AXIS2_PLACEMENT_3D('',#139,#110,#111);
#95=AXIS2_PLACEMENT_3D('',#141,#112,#113);
#96=AXIS2_PLACEMENT_3D('',#143,#114,#115);
#97=AXIS2_PLACEMENT_3D('',#144,#116,#117);
#98=AXIS2_PLACEMENT_3D('',#146,#118,#119);
#99=AXIS2_PLACEMENT_3D('',#147,#120,#121);
#100=AXIS2_PLACEMENT_3D('',#149,#122,#123);
#101=AXIS2_PLACEMENT_3D('',#150,#124,#125);
#102=AXIS2_PLACEMENT_3D('',#152,#126,#127);
#103=AXIS2_PLACEMENT_3D('',#153,#128,#129);
#104=AXIS2_PLACEMENT_3D('',#155,#130,#131);
#105=AXIS2_PLACEMENT_3D('',#157,#132,#133);
#106=AXIS2_PLACEMENT_3D('',#158,#134,#135);
#107=AXIS2_PLACEMENT_3D('',#159,#136,#137);
#108=DIRECTION('axis',(0.,0.,1.));
#109=DIRECTION('refdir',(1.,0.,0.));
#110=DIRECTION('center_axis',(0.,0.,-1.));
#111=DIRECTION('ref_axis',(-1.,0.,0.));
#112=DIRECTION('center_axis',(0.,0.,-1.));
#113=DIRECTION('ref_axis',(-1.,0.,0.));
#114=DIRECTION('center_axis',(0.,0.,1.));
#115=DIRECTION('ref_axis',(-1.,0.,0.));
#116=DIRECTION('center_axis',(0.,0.,1.));
#117=DIRECTION('ref_axis',(-1.,0.,0.));
#118=DIRECTION('center_axis',(0.,0.,-1.));
#119=DIRECTION('ref_axis',(-1.,0.,0.));
#120=DIRECTION('center_axis',(0.,0.,-1.));
#121=DIRECTION('ref_axis',(-1.,0.,0.));
#122=DIRECTION('center_axis',(0.,0.,-1.));
#123=DIRECTION('ref_axis',(-1.,0.,0.));
#124=DIRECTION('center_axis',(0.,0.,1.));
#125=DIRECTION('ref_axis',(-1.,0.,0.));
#126=DIRECTION('center_axis',(0.,0.,1.));
#127=DIRECTION('ref_axis',(-1.,0.,0.));
#128=DIRECTION('center_axis',(0.,0.,1.));
#129=DIRECTION('ref_axis',(-1.,0.,0.));
#130=DIRECTION('center_axis',(0.,0.,-1.));
#131=DIRECTION('ref_axis',(-1.,0.,0.));
#132=DIRECTION('center_axis',(0.,0.,-1.));
#133=DIRECTION('ref_axis',(-1.,0.,0.));
#134=DIRECTION('center_axis',(0.,0.,-1.));
#135=DIRECTION('ref_axis',(-1.,0.,0.));
#136=DIRECTION('center_axis',(0.,0.,-1.));
#137=DIRECTION('ref_axis',(-1.,0.,0.));
#138=CARTESIAN_POINT('',(0.,0.,0.));
#139=CARTESIAN_POINT('Origin',(0.,0.,3.25));
#140=CARTESIAN_POINT('',(6.4,-7.83748066446321E-016,3.5));
#141=CARTESIAN_POINT('Origin',(0.,0.,3.5));
#142=CARTESIAN_POINT('',(6.9,8.4497838413744E-016,3.));
#143=CARTESIAN_POINT('Origin',(0.,0.,3.));
#144=CARTESIAN_POINT('Origin',(0.,0.,1.5));
#145=CARTESIAN_POINT('',(6.9,8.4497838413744E-016,1.5));
#146=CARTESIAN_POINT('Origin',(0.,0.,1.5));
#147=CARTESIAN_POINT('Origin',(0.,0.,3.5));
#148=CARTESIAN_POINT('',(4.5,5.5107285922007E-016,3.5));
#149=CARTESIAN_POINT('Origin',(0.,0.,3.5));
#150=CARTESIAN_POINT('Origin',(0.,0.,0.));
#151=CARTESIAN_POINT('',(4.5,5.5107285922007E-016,0.));
#152=CARTESIAN_POINT('Origin',(0.,0.,0.));
#153=CARTESIAN_POINT('Origin',(0.,0.,0.));
#154=CARTESIAN_POINT('',(11.,1.34706698920462E-015,1.5));
#155=CARTESIAN_POINT('Origin',(0.,0.,1.5));
#156=CARTESIAN_POINT('',(11.,1.34706698920462E-015,0.));
#157=CARTESIAN_POINT('Origin',(0.,0.,0.));
#158=CARTESIAN_POINT('Origin',(0.,0.,1.5));
#159=CARTESIAN_POINT('Origin',(0.,0.,0.));
#160=UNCERTAINTY_MEASURE_WITH_UNIT(LENGTH_MEASURE(0.01),#164,
'DISTANCE_ACCURACY_VALUE',
'Maximum model space distance between geometric entities at asserted c
onnectivities');
#161=UNCERTAINTY_MEASURE_WITH_UNIT(LENGTH_MEASURE(1.E-006),#164,
'DISTANCE_ACCURACY_VALUE',
'Maximum model space distance between geometric entities at asserted c
onnectivities');
#162=(
GEOMETRIC_REPRESENTATION_CONTEXT(3)
GLOBAL_UNCERTAINTY_ASSIGNED_CONTEXT((#160))
GLOBAL_UNIT_ASSIGNED_CONTEXT((#164,#167,#165))
REPRESENTATION_CONTEXT('','3D')
);
#163=(
GEOMETRIC_REPRESENTATION_CONTEXT(3)
GLOBAL_UNCERTAINTY_ASSIGNED_CONTEXT((#161))
GLOBAL_UNIT_ASSIGNED_CONTEXT((#164,#167,#165))
REPRESENTATION_CONTEXT('','3D')
);
#164=(
LENGTH_UNIT()
NAMED_UNIT(*)
SI_UNIT(.MILLI.,.METRE.)
);
#165=(
NAMED_UNIT(*)
SI_UNIT($,.STERADIAN.)
SOLID_ANGLE_UNIT()
);
#166=DIMENSIONAL_EXPONENTS(0.,0.,0.,0.,0.,0.,0.);
#167=(
CONVERSION_BASED_UNIT('degree',#169)
NAMED_UNIT(#166)
PLANE_ANGLE_UNIT()
);
#168=(
NAMED_UNIT(*)
PLANE_ANGLE_UNIT()
SI_UNIT($,.RADIAN.)
);
#169=PLANE_ANGLE_MEASURE_WITH_UNIT(PLANE_ANGLE_MEASURE(0.01745329252),#168);
#170=SHAPE_DEFINITION_REPRESENTATION(#171,#172);
#171=PRODUCT_DEFINITION_SHAPE('',$,#174);
#172=SHAPE_REPRESENTATION('',(#93),#162);
#173=PRODUCT_DEFINITION_CONTEXT('part definition',#178,'design');
#174=PRODUCT_DEFINITION('FSW 801','FSW 801',#175,#173);
#175=PRODUCT_DEFINITION_FORMATION('',$,#180);
#176=PRODUCT_RELATED_PRODUCT_CATEGORY('FSW 801','FSW 801',(#180));
#177=APPLICATION_PROTOCOL_DEFINITION('international standard',
'automotive_design',2009,#178);
#178=APPLICATION_CONTEXT(
'Core Data for Automotive Mechanical Design Process');
#179=PRODUCT_CONTEXT('part definition',#178,'mechanical');
#180=PRODUCT('FSW 801','FSW 801',$,(#179));
#181=PRESENTATION_STYLE_ASSIGNMENT((#182));
#182=SURFACE_STYLE_USAGE(.BOTH.,#183);
#183=SURFACE_SIDE_STYLE($,(#184));
#184=SURFACE_STYLE_FILL_AREA(#185);
#185=FILL_AREA_STYLE($,(#186));
#186=FILL_AREA_STYLE_COLOUR($,#187);
#187=COLOUR_RGB('',1.,1.,1.);
ENDSEC;
END-ISO-10303-21;
