ISO-10303-21;
HEADER;
/* Generated by software containing ST-Developer
 * from STEP Tools, Inc. (www.steptools.com) 
 */

FILE_DESCRIPTION(
/* description */ ('Profile'),
/* implementation_level */ '2;1');

FILE_NAME(
/* name */ 
'N:\\Documents\\Catalogue Update\\STEP files for John Oct16\\PWS 14.st
p',
/* time_stamp */ '2016-10-17T17:23:55+01:00',
/* author */ ('kevin'),
/* organization */ (''),
/* preprocessor_version */ 'ST-DEVELOPER v15.2',
/* originating_system */ 'Autodesk Inventor 2014',
/* authorisation */ '');

FILE_SCHEMA (('AUTOMOTIVE_DESIGN { 1 0 10303 214 3 1 1 }'));
ENDSEC;

DATA;
#10=MECHANICAL_DESIGN_GEOMETRIC_PRESENTATION_REPRESENTATION('',(#13),#567);
#11=SHAPE_REPRESENTATION_RELATIONSHIP('SRR','None',#576,#12);
#12=ADVANCED_BREP_SHAPE_REPRESENTATION($,(#359),#566);
#13=STYLED_ITEM('',(#585),#359);
#14=FACE_OUTER_BOUND('',#32,.T.);
#15=FACE_OUTER_BOUND('',#33,.T.);
#16=FACE_OUTER_BOUND('',#34,.T.);
#17=FACE_OUTER_BOUND('',#35,.T.);
#18=FACE_OUTER_BOUND('',#36,.T.);
#19=FACE_OUTER_BOUND('',#37,.T.);
#20=FACE_OUTER_BOUND('',#38,.T.);
#21=FACE_OUTER_BOUND('',#39,.T.);
#22=FACE_OUTER_BOUND('',#40,.T.);
#23=FACE_OUTER_BOUND('',#41,.T.);
#24=FACE_OUTER_BOUND('',#42,.T.);
#25=FACE_OUTER_BOUND('',#43,.T.);
#26=FACE_OUTER_BOUND('',#44,.T.);
#27=FACE_OUTER_BOUND('',#45,.T.);
#28=FACE_OUTER_BOUND('',#46,.T.);
#29=FACE_OUTER_BOUND('',#47,.T.);
#30=FACE_OUTER_BOUND('',#48,.T.);
#31=FACE_OUTER_BOUND('',#49,.T.);
#32=EDGE_LOOP('',(#226,#227,#228,#229));
#33=EDGE_LOOP('',(#230,#231,#232,#233));
#34=EDGE_LOOP('',(#234,#235,#236,#237,#238,#239,#240,#241,#242,#243,#244,
#245,#246,#247,#248,#249));
#35=EDGE_LOOP('',(#250,#251,#252,#253));
#36=EDGE_LOOP('',(#254,#255,#256,#257,#258,#259,#260,#261,#262,#263,#264,
#265,#266,#267,#268,#269));
#37=EDGE_LOOP('',(#270,#271,#272,#273));
#38=EDGE_LOOP('',(#274,#275,#276,#277));
#39=EDGE_LOOP('',(#278,#279,#280,#281));
#40=EDGE_LOOP('',(#282,#283,#284,#285));
#41=EDGE_LOOP('',(#286,#287,#288,#289));
#42=EDGE_LOOP('',(#290,#291,#292,#293));
#43=EDGE_LOOP('',(#294,#295,#296,#297));
#44=EDGE_LOOP('',(#298,#299,#300,#301));
#45=EDGE_LOOP('',(#302,#303,#304,#305));
#46=EDGE_LOOP('',(#306,#307,#308,#309));
#47=EDGE_LOOP('',(#310,#311,#312,#313));
#48=EDGE_LOOP('',(#314,#315,#316,#317));
#49=EDGE_LOOP('',(#318,#319,#320,#321));
#50=LINE('',#469,#98);
#51=LINE('',#471,#99);
#52=LINE('',#473,#100);
#53=LINE('',#474,#101);
#54=LINE('',#477,#102);
#55=LINE('',#479,#103);
#56=LINE('',#480,#104);
#57=LINE('',#483,#105);
#58=LINE('',#485,#106);
#59=LINE('',#487,#107);
#60=LINE('',#489,#108);
#61=LINE('',#491,#109);
#62=LINE('',#493,#110);
#63=LINE('',#495,#111);
#64=LINE('',#497,#112);
#65=LINE('',#499,#113);
#66=LINE('',#501,#114);
#67=LINE('',#503,#115);
#68=LINE('',#505,#116);
#69=LINE('',#507,#117);
#70=LINE('',#508,#118);
#71=LINE('',#511,#119);
#72=LINE('',#513,#120);
#73=LINE('',#514,#121);
#74=LINE('',#517,#122);
#75=LINE('',#519,#123);
#76=LINE('',#521,#124);
#77=LINE('',#522,#125);
#78=LINE('',#524,#126);
#79=LINE('',#526,#127);
#80=LINE('',#528,#128);
#81=LINE('',#530,#129);
#82=LINE('',#532,#130);
#83=LINE('',#534,#131);
#84=LINE('',#536,#132);
#85=LINE('',#538,#133);
#86=LINE('',#539,#134);
#87=LINE('',#541,#135);
#88=LINE('',#543,#136);
#89=LINE('',#545,#137);
#90=LINE('',#546,#138);
#91=LINE('',#548,#139);
#92=LINE('',#550,#140);
#93=LINE('',#551,#141);
#94=LINE('',#554,#142);
#95=LINE('',#557,#143);
#96=LINE('',#558,#144);
#97=LINE('',#560,#145);
#98=VECTOR('',#383,1.4142135623731);
#99=VECTOR('',#384,150.);
#100=VECTOR('',#385,1.4142135623731);
#101=VECTOR('',#386,150.);
#102=VECTOR('',#389,4.00000000000001);
#103=VECTOR('',#390,150.);
#104=VECTOR('',#391,4.00000000000001);
#105=VECTOR('',#394,36.);
#106=VECTOR('',#395,1.41421356237309);
#107=VECTOR('',#396,4.);
#108=VECTOR('',#397,12.2);
#109=VECTOR('',#398,4.90000000000001);
#110=VECTOR('',#399,3.2);
#111=VECTOR('',#400,2.59999999999999);
#112=VECTOR('',#401,1.4142135623731);
#113=VECTOR('',#402,18.);
#114=VECTOR('',#403,1.41421356237309);
#115=VECTOR('',#404,2.6);
#116=VECTOR('',#405,3.2);
#117=VECTOR('',#406,4.90000000000001);
#118=VECTOR('',#407,12.2);
#119=VECTOR('',#410,150.);
#120=VECTOR('',#411,1.41421356237309);
#121=VECTOR('',#412,150.);
#122=VECTOR('',#415,12.2);
#123=VECTOR('',#416,4.90000000000001);
#124=VECTOR('',#417,3.2);
#125=VECTOR('',#418,2.6);
#126=VECTOR('',#419,18.);
#127=VECTOR('',#420,1.4142135623731);
#128=VECTOR('',#421,2.59999999999999);
#129=VECTOR('',#422,3.2);
#130=VECTOR('',#423,4.90000000000001);
#131=VECTOR('',#424,12.2);
#132=VECTOR('',#425,4.);
#133=VECTOR('',#426,1.41421356237309);
#134=VECTOR('',#427,36.);
#135=VECTOR('',#430,150.);
#136=VECTOR('',#433,150.);
#137=VECTOR('',#436,150.);
#138=VECTOR('',#437,150.);
#139=VECTOR('',#440,150.);
#140=VECTOR('',#443,150.);
#141=VECTOR('',#444,150.);
#142=VECTOR('',#449,150.);
#143=VECTOR('',#454,150.);
#144=VECTOR('',#455,150.);
#145=VECTOR('',#458,150.);
#146=VERTEX_POINT('',#467);
#147=VERTEX_POINT('',#468);
#148=VERTEX_POINT('',#470);
#149=VERTEX_POINT('',#472);
#150=VERTEX_POINT('',#476);
#151=VERTEX_POINT('',#478);
#152=VERTEX_POINT('',#482);
#153=VERTEX_POINT('',#484);
#154=VERTEX_POINT('',#486);
#155=VERTEX_POINT('',#488);
#156=VERTEX_POINT('',#490);
#157=VERTEX_POINT('',#492);
#158=VERTEX_POINT('',#494);
#159=VERTEX_POINT('',#496);
#160=VERTEX_POINT('',#498);
#161=VERTEX_POINT('',#500);
#162=VERTEX_POINT('',#502);
#163=VERTEX_POINT('',#504);
#164=VERTEX_POINT('',#506);
#165=VERTEX_POINT('',#510);
#166=VERTEX_POINT('',#512);
#167=VERTEX_POINT('',#516);
#168=VERTEX_POINT('',#518);
#169=VERTEX_POINT('',#520);
#170=VERTEX_POINT('',#523);
#171=VERTEX_POINT('',#525);
#172=VERTEX_POINT('',#527);
#173=VERTEX_POINT('',#529);
#174=VERTEX_POINT('',#531);
#175=VERTEX_POINT('',#533);
#176=VERTEX_POINT('',#535);
#177=VERTEX_POINT('',#537);
#178=EDGE_CURVE('',#146,#147,#50,.T.);
#179=EDGE_CURVE('',#147,#148,#51,.T.);
#180=EDGE_CURVE('',#148,#149,#52,.T.);
#181=EDGE_CURVE('',#149,#146,#53,.T.);
#182=EDGE_CURVE('',#149,#150,#54,.T.);
#183=EDGE_CURVE('',#150,#151,#55,.T.);
#184=EDGE_CURVE('',#151,#146,#56,.T.);
#185=EDGE_CURVE('',#152,#148,#57,.T.);
#186=EDGE_CURVE('',#153,#152,#58,.T.);
#187=EDGE_CURVE('',#154,#153,#59,.T.);
#188=EDGE_CURVE('',#154,#155,#60,.T.);
#189=EDGE_CURVE('',#155,#156,#61,.T.);
#190=EDGE_CURVE('',#156,#157,#62,.T.);
#191=EDGE_CURVE('',#157,#158,#63,.T.);
#192=EDGE_CURVE('',#159,#158,#64,.T.);
#193=EDGE_CURVE('',#160,#159,#65,.T.);
#194=EDGE_CURVE('',#161,#160,#66,.T.);
#195=EDGE_CURVE('',#161,#162,#67,.T.);
#196=EDGE_CURVE('',#162,#163,#68,.T.);
#197=EDGE_CURVE('',#163,#164,#69,.T.);
#198=EDGE_CURVE('',#164,#150,#70,.T.);
#199=EDGE_CURVE('',#160,#165,#71,.T.);
#200=EDGE_CURVE('',#165,#166,#72,.T.);
#201=EDGE_CURVE('',#166,#161,#73,.T.);
#202=EDGE_CURVE('',#151,#167,#74,.T.);
#203=EDGE_CURVE('',#167,#168,#75,.T.);
#204=EDGE_CURVE('',#168,#169,#76,.T.);
#205=EDGE_CURVE('',#169,#166,#77,.T.);
#206=EDGE_CURVE('',#170,#165,#78,.T.);
#207=EDGE_CURVE('',#171,#170,#79,.T.);
#208=EDGE_CURVE('',#171,#172,#80,.T.);
#209=EDGE_CURVE('',#172,#173,#81,.T.);
#210=EDGE_CURVE('',#173,#174,#82,.T.);
#211=EDGE_CURVE('',#174,#175,#83,.T.);
#212=EDGE_CURVE('',#176,#175,#84,.T.);
#213=EDGE_CURVE('',#177,#176,#85,.T.);
#214=EDGE_CURVE('',#147,#177,#86,.T.);
#215=EDGE_CURVE('',#170,#159,#87,.T.);
#216=EDGE_CURVE('',#158,#171,#88,.T.);
#217=EDGE_CURVE('',#176,#153,#89,.T.);
#218=EDGE_CURVE('',#152,#177,#90,.T.);
#219=EDGE_CURVE('',#175,#154,#91,.T.);
#220=EDGE_CURVE('',#173,#156,#92,.T.);
#221=EDGE_CURVE('',#172,#157,#93,.T.);
#222=EDGE_CURVE('',#174,#155,#94,.T.);
#223=EDGE_CURVE('',#169,#162,#95,.T.);
#224=EDGE_CURVE('',#168,#163,#96,.T.);
#225=EDGE_CURVE('',#167,#164,#97,.T.);
#226=ORIENTED_EDGE('',*,*,#178,.T.);
#227=ORIENTED_EDGE('',*,*,#179,.T.);
#228=ORIENTED_EDGE('',*,*,#180,.T.);
#229=ORIENTED_EDGE('',*,*,#181,.T.);
#230=ORIENTED_EDGE('',*,*,#181,.F.);
#231=ORIENTED_EDGE('',*,*,#182,.T.);
#232=ORIENTED_EDGE('',*,*,#183,.T.);
#233=ORIENTED_EDGE('',*,*,#184,.T.);
#234=ORIENTED_EDGE('',*,*,#180,.F.);
#235=ORIENTED_EDGE('',*,*,#185,.F.);
#236=ORIENTED_EDGE('',*,*,#186,.F.);
#237=ORIENTED_EDGE('',*,*,#187,.F.);
#238=ORIENTED_EDGE('',*,*,#188,.T.);
#239=ORIENTED_EDGE('',*,*,#189,.T.);
#240=ORIENTED_EDGE('',*,*,#190,.T.);
#241=ORIENTED_EDGE('',*,*,#191,.T.);
#242=ORIENTED_EDGE('',*,*,#192,.F.);
#243=ORIENTED_EDGE('',*,*,#193,.F.);
#244=ORIENTED_EDGE('',*,*,#194,.F.);
#245=ORIENTED_EDGE('',*,*,#195,.T.);
#246=ORIENTED_EDGE('',*,*,#196,.T.);
#247=ORIENTED_EDGE('',*,*,#197,.T.);
#248=ORIENTED_EDGE('',*,*,#198,.T.);
#249=ORIENTED_EDGE('',*,*,#182,.F.);
#250=ORIENTED_EDGE('',*,*,#194,.T.);
#251=ORIENTED_EDGE('',*,*,#199,.T.);
#252=ORIENTED_EDGE('',*,*,#200,.T.);
#253=ORIENTED_EDGE('',*,*,#201,.T.);
#254=ORIENTED_EDGE('',*,*,#178,.F.);
#255=ORIENTED_EDGE('',*,*,#184,.F.);
#256=ORIENTED_EDGE('',*,*,#202,.T.);
#257=ORIENTED_EDGE('',*,*,#203,.T.);
#258=ORIENTED_EDGE('',*,*,#204,.T.);
#259=ORIENTED_EDGE('',*,*,#205,.T.);
#260=ORIENTED_EDGE('',*,*,#200,.F.);
#261=ORIENTED_EDGE('',*,*,#206,.F.);
#262=ORIENTED_EDGE('',*,*,#207,.F.);
#263=ORIENTED_EDGE('',*,*,#208,.T.);
#264=ORIENTED_EDGE('',*,*,#209,.T.);
#265=ORIENTED_EDGE('',*,*,#210,.T.);
#266=ORIENTED_EDGE('',*,*,#211,.T.);
#267=ORIENTED_EDGE('',*,*,#212,.F.);
#268=ORIENTED_EDGE('',*,*,#213,.F.);
#269=ORIENTED_EDGE('',*,*,#214,.F.);
#270=ORIENTED_EDGE('',*,*,#199,.F.);
#271=ORIENTED_EDGE('',*,*,#193,.T.);
#272=ORIENTED_EDGE('',*,*,#215,.F.);
#273=ORIENTED_EDGE('',*,*,#206,.T.);
#274=ORIENTED_EDGE('',*,*,#207,.T.);
#275=ORIENTED_EDGE('',*,*,#215,.T.);
#276=ORIENTED_EDGE('',*,*,#192,.T.);
#277=ORIENTED_EDGE('',*,*,#216,.T.);
#278=ORIENTED_EDGE('',*,*,#213,.T.);
#279=ORIENTED_EDGE('',*,*,#217,.T.);
#280=ORIENTED_EDGE('',*,*,#186,.T.);
#281=ORIENTED_EDGE('',*,*,#218,.T.);
#282=ORIENTED_EDGE('',*,*,#217,.F.);
#283=ORIENTED_EDGE('',*,*,#212,.T.);
#284=ORIENTED_EDGE('',*,*,#219,.T.);
#285=ORIENTED_EDGE('',*,*,#187,.T.);
#286=ORIENTED_EDGE('',*,*,#190,.F.);
#287=ORIENTED_EDGE('',*,*,#220,.F.);
#288=ORIENTED_EDGE('',*,*,#209,.F.);
#289=ORIENTED_EDGE('',*,*,#221,.T.);
#290=ORIENTED_EDGE('',*,*,#216,.F.);
#291=ORIENTED_EDGE('',*,*,#191,.F.);
#292=ORIENTED_EDGE('',*,*,#221,.F.);
#293=ORIENTED_EDGE('',*,*,#208,.F.);
#294=ORIENTED_EDGE('',*,*,#188,.F.);
#295=ORIENTED_EDGE('',*,*,#219,.F.);
#296=ORIENTED_EDGE('',*,*,#211,.F.);
#297=ORIENTED_EDGE('',*,*,#222,.T.);
#298=ORIENTED_EDGE('',*,*,#189,.F.);
#299=ORIENTED_EDGE('',*,*,#222,.F.);
#300=ORIENTED_EDGE('',*,*,#210,.F.);
#301=ORIENTED_EDGE('',*,*,#220,.T.);
#302=ORIENTED_EDGE('',*,*,#196,.F.);
#303=ORIENTED_EDGE('',*,*,#223,.F.);
#304=ORIENTED_EDGE('',*,*,#204,.F.);
#305=ORIENTED_EDGE('',*,*,#224,.T.);
#306=ORIENTED_EDGE('',*,*,#197,.F.);
#307=ORIENTED_EDGE('',*,*,#224,.F.);
#308=ORIENTED_EDGE('',*,*,#203,.F.);
#309=ORIENTED_EDGE('',*,*,#225,.T.);
#310=ORIENTED_EDGE('',*,*,#198,.F.);
#311=ORIENTED_EDGE('',*,*,#225,.F.);
#312=ORIENTED_EDGE('',*,*,#202,.F.);
#313=ORIENTED_EDGE('',*,*,#183,.F.);
#314=ORIENTED_EDGE('',*,*,#201,.F.);
#315=ORIENTED_EDGE('',*,*,#205,.F.);
#316=ORIENTED_EDGE('',*,*,#223,.T.);
#317=ORIENTED_EDGE('',*,*,#195,.F.);
#318=ORIENTED_EDGE('',*,*,#179,.F.);
#319=ORIENTED_EDGE('',*,*,#214,.T.);
#320=ORIENTED_EDGE('',*,*,#218,.F.);
#321=ORIENTED_EDGE('',*,*,#185,.T.);
#322=PLANE('',#361);
#323=PLANE('',#362);
#324=PLANE('',#363);
#325=PLANE('',#364);
#326=PLANE('',#365);
#327=PLANE('',#366);
#328=PLANE('',#367);
#329=PLANE('',#368);
#330=PLANE('',#369);
#331=PLANE('',#370);
#332=PLANE('',#371);
#333=PLANE('',#372);
#334=PLANE('',#373);
#335=PLANE('',#374);
#336=PLANE('',#375);
#337=PLANE('',#376);
#338=PLANE('',#377);
#339=PLANE('',#378);
#340=ADVANCED_FACE('',(#14),#322,.T.);
#341=ADVANCED_FACE('',(#15),#323,.T.);
#342=ADVANCED_FACE('',(#16),#324,.F.);
#343=ADVANCED_FACE('',(#17),#325,.T.);
#344=ADVANCED_FACE('',(#18),#326,.T.);
#345=ADVANCED_FACE('',(#19),#327,.T.);
#346=ADVANCED_FACE('',(#20),#328,.T.);
#347=ADVANCED_FACE('',(#21),#329,.T.);
#348=ADVANCED_FACE('',(#22),#330,.T.);
#349=ADVANCED_FACE('',(#23),#331,.F.);
#350=ADVANCED_FACE('',(#24),#332,.F.);
#351=ADVANCED_FACE('',(#25),#333,.F.);
#352=ADVANCED_FACE('',(#26),#334,.F.);
#353=ADVANCED_FACE('',(#27),#335,.F.);
#354=ADVANCED_FACE('',(#28),#336,.F.);
#355=ADVANCED_FACE('',(#29),#337,.F.);
#356=ADVANCED_FACE('',(#30),#338,.F.);
#357=ADVANCED_FACE('',(#31),#339,.T.);
#358=CLOSED_SHELL('',(#340,#341,#342,#343,#344,#345,#346,#347,#348,#349,
#350,#351,#352,#353,#354,#355,#356,#357));
#359=MANIFOLD_SOLID_BREP('Solid1',#358);
#360=AXIS2_PLACEMENT_3D('placement',#465,#379,#380);
#361=AXIS2_PLACEMENT_3D('',#466,#381,#382);
#362=AXIS2_PLACEMENT_3D('',#475,#387,#388);
#363=AXIS2_PLACEMENT_3D('',#481,#392,#393);
#364=AXIS2_PLACEMENT_3D('',#509,#408,#409);
#365=AXIS2_PLACEMENT_3D('',#515,#413,#414);
#366=AXIS2_PLACEMENT_3D('',#540,#428,#429);
#367=AXIS2_PLACEMENT_3D('',#542,#431,#432);
#368=AXIS2_PLACEMENT_3D('',#544,#434,#435);
#369=AXIS2_PLACEMENT_3D('',#547,#438,#439);
#370=AXIS2_PLACEMENT_3D('',#549,#441,#442);
#371=AXIS2_PLACEMENT_3D('',#552,#445,#446);
#372=AXIS2_PLACEMENT_3D('',#553,#447,#448);
#373=AXIS2_PLACEMENT_3D('',#555,#450,#451);
#374=AXIS2_PLACEMENT_3D('',#556,#452,#453);
#375=AXIS2_PLACEMENT_3D('',#559,#456,#457);
#376=AXIS2_PLACEMENT_3D('',#561,#459,#460);
#377=AXIS2_PLACEMENT_3D('',#562,#461,#462);
#378=AXIS2_PLACEMENT_3D('',#563,#463,#464);
#379=DIRECTION('axis',(0.,0.,1.));
#380=DIRECTION('refdir',(1.,0.,0.));
#381=DIRECTION('center_axis',(0.707106781186547,0.707106781186548,0.));
#382=DIRECTION('ref_axis',(0.,0.,-1.));
#383=DIRECTION('',(0.707106781186548,-0.707106781186547,0.));
#384=DIRECTION('',(0.,0.,-1.));
#385=DIRECTION('',(-0.707106781186548,0.707106781186547,0.));
#386=DIRECTION('',(0.,0.,1.));
#387=DIRECTION('center_axis',(0.,1.,0.));
#388=DIRECTION('ref_axis',(0.,0.,1.));
#389=DIRECTION('',(-1.,0.,0.));
#390=DIRECTION('',(0.,0.,1.));
#391=DIRECTION('',(1.,0.,0.));
#392=DIRECTION('center_axis',(0.,0.,1.));
#393=DIRECTION('ref_axis',(1.,0.,0.));
#394=DIRECTION('',(-1.75298372309235E-016,1.,0.));
#395=DIRECTION('',(0.707106781186548,0.707106781186547,0.));
#396=DIRECTION('',(1.,2.05596856412066E-017,0.));
#397=DIRECTION('',(0.,1.,0.));
#398=DIRECTION('',(-1.,0.,0.));
#399=DIRECTION('',(-1.38777878078145E-015,-1.,0.));
#400=DIRECTION('',(-1.,-1.2335811384724E-015,0.));
#401=DIRECTION('',(0.707106781186551,-0.707106781186544,0.));
#402=DIRECTION('',(2.3373116307898E-016,-1.,0.));
#403=DIRECTION('',(-0.707106781186544,-0.707106781186551,0.));
#404=DIRECTION('',(1.,0.,0.));
#405=DIRECTION('',(2.77555756156289E-015,-1.,0.));
#406=DIRECTION('',(1.,1.81260901979617E-015,0.));
#407=DIRECTION('',(-1.09202264717229E-015,1.,0.));
#408=DIRECTION('center_axis',(-0.707106781186551,0.707106781186544,0.));
#409=DIRECTION('ref_axis',(0.,0.,1.));
#410=DIRECTION('',(0.,0.,1.));
#411=DIRECTION('',(0.707106781186544,0.707106781186551,0.));
#412=DIRECTION('',(0.,0.,-1.));
#413=DIRECTION('center_axis',(0.,0.,1.));
#414=DIRECTION('ref_axis',(1.,0.,0.));
#415=DIRECTION('',(1.09202264717229E-015,-1.,0.));
#416=DIRECTION('',(-1.,-1.81260901979617E-015,0.));
#417=DIRECTION('',(-2.77555756156289E-015,1.,0.));
#418=DIRECTION('',(-1.,0.,0.));
#419=DIRECTION('',(-2.3373116307898E-016,1.,0.));
#420=DIRECTION('',(-0.707106781186551,0.707106781186544,0.));
#421=DIRECTION('',(1.,1.2335811384724E-015,0.));
#422=DIRECTION('',(1.38777878078145E-015,1.,0.));
#423=DIRECTION('',(1.,0.,0.));
#424=DIRECTION('',(0.,-1.,0.));
#425=DIRECTION('',(-1.,-2.05596856412066E-017,0.));
#426=DIRECTION('',(-0.707106781186548,-0.707106781186547,0.));
#427=DIRECTION('',(1.75298372309235E-016,-1.,0.));
#428=DIRECTION('center_axis',(-1.,-2.3373116307898E-016,0.));
#429=DIRECTION('ref_axis',(0.,0.,1.));
#430=DIRECTION('',(0.,0.,-1.));
#431=DIRECTION('center_axis',(-0.707106781186544,-0.707106781186551,0.));
#432=DIRECTION('ref_axis',(0.,0.,1.));
#433=DIRECTION('',(0.,0.,1.));
#434=DIRECTION('center_axis',(0.707106781186547,-0.707106781186548,0.));
#435=DIRECTION('ref_axis',(0.,0.,-1.));
#436=DIRECTION('',(0.,0.,-1.));
#437=DIRECTION('',(0.,0.,1.));
#438=DIRECTION('center_axis',(2.05596856412066E-017,-1.,0.));
#439=DIRECTION('ref_axis',(0.,0.,-1.));
#440=DIRECTION('',(0.,0.,-1.));
#441=DIRECTION('center_axis',(-1.,1.38777878078145E-015,0.));
#442=DIRECTION('ref_axis',(0.,0.,1.));
#443=DIRECTION('',(0.,0.,-1.));
#444=DIRECTION('',(0.,0.,-1.));
#445=DIRECTION('center_axis',(-1.2335811384724E-015,1.,0.));
#446=DIRECTION('ref_axis',(0.,0.,1.));
#447=DIRECTION('center_axis',(1.,0.,0.));
#448=DIRECTION('ref_axis',(0.,0.,-1.));
#449=DIRECTION('',(0.,0.,-1.));
#450=DIRECTION('center_axis',(0.,1.,0.));
#451=DIRECTION('ref_axis',(0.,0.,1.));
#452=DIRECTION('center_axis',(-1.,-2.77555756156289E-015,0.));
#453=DIRECTION('ref_axis',(0.,0.,1.));
#454=DIRECTION('',(0.,0.,-1.));
#455=DIRECTION('',(0.,0.,-1.));
#456=DIRECTION('center_axis',(1.81260901979617E-015,-1.,0.));
#457=DIRECTION('ref_axis',(0.,0.,-1.));
#458=DIRECTION('',(0.,0.,-1.));
#459=DIRECTION('center_axis',(1.,1.09202264717229E-015,0.));
#460=DIRECTION('ref_axis',(0.,0.,-1.));
#461=DIRECTION('center_axis',(0.,-1.,0.));
#462=DIRECTION('ref_axis',(0.,0.,-1.));
#463=DIRECTION('center_axis',(1.,1.75298372309235E-016,0.));
#464=DIRECTION('ref_axis',(0.,0.,-1.));
#465=CARTESIAN_POINT('',(0.,0.,0.));
#466=CARTESIAN_POINT('Origin',(-15.842104833377,38.5526315294144,0.));
#467=CARTESIAN_POINT('',(-16.342104833377,39.0526315294144,150.));
#468=CARTESIAN_POINT('',(-15.342104833377,38.0526315294144,150.));
#469=CARTESIAN_POINT('',(-12.779604833377,35.4901315294144,150.));
#470=CARTESIAN_POINT('',(-15.342104833377,38.0526315294144,0.));
#471=CARTESIAN_POINT('',(-15.342104833377,38.0526315294144,0.));
#472=CARTESIAN_POINT('',(-16.342104833377,39.0526315294144,0.));
#473=CARTESIAN_POINT('',(-12.779604833377,35.4901315294144,0.));
#474=CARTESIAN_POINT('',(-16.342104833377,39.0526315294144,0.));
#475=CARTESIAN_POINT('Origin',(-28.842104833377,39.0526315294144,0.));
#476=CARTESIAN_POINT('',(-20.3421048333771,39.0526315294144,0.));
#477=CARTESIAN_POINT('',(-15.342104833377,39.0526315294144,0.));
#478=CARTESIAN_POINT('',(-20.3421048333771,39.0526315294144,150.));
#479=CARTESIAN_POINT('',(-20.342104833377,39.0526315294144,75.));
#480=CARTESIAN_POINT('',(-15.342104833377,39.0526315294144,150.));
#481=CARTESIAN_POINT('Origin',(-22.092104833377,20.0526315294144,0.));
#482=CARTESIAN_POINT('',(-15.342104833377,2.05263152941443,0.));
#483=CARTESIAN_POINT('',(-15.342104833377,1.05263152941443,0.));
#484=CARTESIAN_POINT('',(-16.342104833377,1.05263152941443,0.));
#485=CARTESIAN_POINT('',(-12.779604833377,4.61513152941442,0.));
#486=CARTESIAN_POINT('',(-20.342104833377,1.05263152941443,0.));
#487=CARTESIAN_POINT('',(-28.842104833377,1.05263152941443,0.));
#488=CARTESIAN_POINT('',(-20.342104833377,13.2526315294144,0.));
#489=CARTESIAN_POINT('',(-20.342104833377,10.5526315294144,0.));
#490=CARTESIAN_POINT('',(-25.242104833377,13.2526315294144,0.));
#491=CARTESIAN_POINT('',(-21.217104833377,13.2526315294144,0.));
#492=CARTESIAN_POINT('',(-25.242104833377,10.0526315294144,0.));
#493=CARTESIAN_POINT('',(-25.242104833377,16.6526315294144,0.));
#494=CARTESIAN_POINT('',(-27.842104833377,10.0526315294144,0.));
#495=CARTESIAN_POINT('',(-23.667104833377,10.0526315294144,0.));
#496=CARTESIAN_POINT('',(-28.842104833377,11.0526315294144,0.));
#497=CARTESIAN_POINT('',(-29.154604833377,11.3651315294144,0.));
#498=CARTESIAN_POINT('',(-28.842104833377,29.0526315294144,0.));
#499=CARTESIAN_POINT('',(-28.842104833377,39.0526315294144,0.));
#500=CARTESIAN_POINT('',(-27.8421048333771,30.0526315294144,0.));
#501=CARTESIAN_POINT('',(-29.1546048333771,28.7401315294144,0.));
#502=CARTESIAN_POINT('',(-25.242104833377,30.0526315294144,0.));
#503=CARTESIAN_POINT('',(-25.467104833377,30.0526315294144,0.));
#504=CARTESIAN_POINT('',(-25.242104833377,26.8526315294144,0.));
#505=CARTESIAN_POINT('',(-25.242104833377,25.0526315294144,0.));
#506=CARTESIAN_POINT('',(-20.342104833377,26.8526315294144,0.));
#507=CARTESIAN_POINT('',(-23.667104833377,26.8526315294144,0.));
#508=CARTESIAN_POINT('',(-20.342104833377,23.4526315294144,0.));
#509=CARTESIAN_POINT('Origin',(-28.342104833377,29.5526315294144,75.));
#510=CARTESIAN_POINT('',(-28.842104833377,29.0526315294144,150.));
#511=CARTESIAN_POINT('',(-28.842104833377,29.0526315294144,75.));
#512=CARTESIAN_POINT('',(-27.8421048333771,30.0526315294144,150.));
#513=CARTESIAN_POINT('',(-29.1546048333771,28.7401315294144,150.));
#514=CARTESIAN_POINT('',(-27.8421048333771,30.0526315294144,75.));
#515=CARTESIAN_POINT('Origin',(-22.092104833377,20.0526315294144,150.));
#516=CARTESIAN_POINT('',(-20.342104833377,26.8526315294144,150.));
#517=CARTESIAN_POINT('',(-20.342104833377,23.4526315294144,150.));
#518=CARTESIAN_POINT('',(-25.242104833377,26.8526315294144,150.));
#519=CARTESIAN_POINT('',(-23.667104833377,26.8526315294144,150.));
#520=CARTESIAN_POINT('',(-25.242104833377,30.0526315294144,150.));
#521=CARTESIAN_POINT('',(-25.242104833377,25.0526315294144,150.));
#522=CARTESIAN_POINT('',(-25.467104833377,30.0526315294144,150.));
#523=CARTESIAN_POINT('',(-28.842104833377,11.0526315294144,150.));
#524=CARTESIAN_POINT('',(-28.842104833377,39.0526315294144,150.));
#525=CARTESIAN_POINT('',(-27.842104833377,10.0526315294144,150.));
#526=CARTESIAN_POINT('',(-29.154604833377,11.3651315294144,150.));
#527=CARTESIAN_POINT('',(-25.242104833377,10.0526315294144,150.));
#528=CARTESIAN_POINT('',(-23.667104833377,10.0526315294144,150.));
#529=CARTESIAN_POINT('',(-25.242104833377,13.2526315294144,150.));
#530=CARTESIAN_POINT('',(-25.242104833377,16.6526315294144,150.));
#531=CARTESIAN_POINT('',(-20.342104833377,13.2526315294144,150.));
#532=CARTESIAN_POINT('',(-21.217104833377,13.2526315294144,150.));
#533=CARTESIAN_POINT('',(-20.342104833377,1.05263152941443,150.));
#534=CARTESIAN_POINT('',(-20.342104833377,10.5526315294144,150.));
#535=CARTESIAN_POINT('',(-16.342104833377,1.05263152941443,150.));
#536=CARTESIAN_POINT('',(-28.842104833377,1.05263152941443,150.));
#537=CARTESIAN_POINT('',(-15.342104833377,2.05263152941443,150.));
#538=CARTESIAN_POINT('',(-12.779604833377,4.61513152941442,150.));
#539=CARTESIAN_POINT('',(-15.342104833377,1.05263152941443,150.));
#540=CARTESIAN_POINT('Origin',(-28.842104833377,1.05263152941443,0.));
#541=CARTESIAN_POINT('',(-28.842104833377,11.0526315294144,75.));
#542=CARTESIAN_POINT('Origin',(-28.342104833377,10.5526315294144,75.));
#543=CARTESIAN_POINT('',(-27.842104833377,10.0526315294144,75.));
#544=CARTESIAN_POINT('Origin',(-15.842104833377,1.55263152941443,0.));
#545=CARTESIAN_POINT('',(-16.342104833377,1.05263152941443,0.));
#546=CARTESIAN_POINT('',(-15.342104833377,2.05263152941443,0.));
#547=CARTESIAN_POINT('Origin',(-15.342104833377,1.05263152941443,0.));
#548=CARTESIAN_POINT('',(-20.342104833377,1.05263152941443,75.));
#549=CARTESIAN_POINT('Origin',(-25.242104833377,13.2526315294144,150.));
#550=CARTESIAN_POINT('',(-25.242104833377,13.2526315294144,150.));
#551=CARTESIAN_POINT('',(-25.242104833377,10.0526315294144,150.));
#552=CARTESIAN_POINT('Origin',(-25.242104833377,10.0526315294144,150.));
#553=CARTESIAN_POINT('Origin',(-20.342104833377,1.05263152941443,150.));
#554=CARTESIAN_POINT('',(-20.342104833377,13.2526315294144,150.));
#555=CARTESIAN_POINT('Origin',(-20.342104833377,13.2526315294144,150.));
#556=CARTESIAN_POINT('Origin',(-25.242104833377,30.0526315294144,150.));
#557=CARTESIAN_POINT('',(-25.242104833377,30.0526315294144,150.));
#558=CARTESIAN_POINT('',(-25.242104833377,26.8526315294144,150.));
#559=CARTESIAN_POINT('Origin',(-25.242104833377,26.8526315294144,150.));
#560=CARTESIAN_POINT('',(-20.342104833377,26.8526315294144,150.));
#561=CARTESIAN_POINT('Origin',(-20.342104833377,26.8526315294144,150.));
#562=CARTESIAN_POINT('Origin',(-28.842104833377,30.0526315294144,150.));
#563=CARTESIAN_POINT('Origin',(-15.342104833377,39.0526315294144,0.));
#564=UNCERTAINTY_MEASURE_WITH_UNIT(LENGTH_MEASURE(0.01),#568,
'DISTANCE_ACCURACY_VALUE',
'Maximum model space distance between geometric entities at asserted c
onnectivities');
#565=UNCERTAINTY_MEASURE_WITH_UNIT(LENGTH_MEASURE(1.E-006),#568,
'DISTANCE_ACCURACY_VALUE',
'Maximum model space distance between geometric entities at asserted c
onnectivities');
#566=(
GEOMETRIC_REPRESENTATION_CONTEXT(3)
GLOBAL_UNCERTAINTY_ASSIGNED_CONTEXT((#564))
GLOBAL_UNIT_ASSIGNED_CONTEXT((#568,#571,#569))
REPRESENTATION_CONTEXT('','3D')
);
#567=(
GEOMETRIC_REPRESENTATION_CONTEXT(3)
GLOBAL_UNCERTAINTY_ASSIGNED_CONTEXT((#565))
GLOBAL_UNIT_ASSIGNED_CONTEXT((#568,#571,#569))
REPRESENTATION_CONTEXT('','3D')
);
#568=(
LENGTH_UNIT()
NAMED_UNIT(*)
SI_UNIT(.MILLI.,.METRE.)
);
#569=(
NAMED_UNIT(*)
SI_UNIT($,.STERADIAN.)
SOLID_ANGLE_UNIT()
);
#570=DIMENSIONAL_EXPONENTS(0.,0.,0.,0.,0.,0.,0.);
#571=(
CONVERSION_BASED_UNIT('degree',#573)
NAMED_UNIT(#570)
PLANE_ANGLE_UNIT()
);
#572=(
NAMED_UNIT(*)
PLANE_ANGLE_UNIT()
SI_UNIT($,.RADIAN.)
);
#573=PLANE_ANGLE_MEASURE_WITH_UNIT(PLANE_ANGLE_MEASURE(0.01745329252),#572);
#574=SHAPE_DEFINITION_REPRESENTATION(#575,#576);
#575=PRODUCT_DEFINITION_SHAPE('',$,#578);
#576=SHAPE_REPRESENTATION('',(#360),#566);
#577=PRODUCT_DEFINITION_CONTEXT('part definition',#582,'design');
#578=PRODUCT_DEFINITION('PWS 14','PWS 14',#579,#577);
#579=PRODUCT_DEFINITION_FORMATION('',$,#584);
#580=PRODUCT_RELATED_PRODUCT_CATEGORY('PWS 14','PWS 14',(#584));
#581=APPLICATION_PROTOCOL_DEFINITION('international standard',
'automotive_design',2009,#582);
#582=APPLICATION_CONTEXT(
'Core Data for Automotive Mechanical Design Process');
#583=PRODUCT_CONTEXT('part definition',#582,'mechanical');
#584=PRODUCT('PWS 14','PWS 14',$,(#583));
#585=PRESENTATION_STYLE_ASSIGNMENT((#586));
#586=SURFACE_STYLE_USAGE(.BOTH.,#587);
#587=SURFACE_SIDE_STYLE($,(#588));
#588=SURFACE_STYLE_FILL_AREA(#589);
#589=FILL_AREA_STYLE($,(#590));
#590=FILL_AREA_STYLE_COLOUR($,#591);
#591=COLOUR_RGB('',0.231372549019608,0.231372549019608,0.231372549019608);
ENDSEC;
END-ISO-10303-21;
